Practice Sheet #2: Groups of Three

(/) Slide Up  (\) Slide Down  (h) Hammer On  (p) Pull Off  (b) Bend (r) Release (v) Vibrato


E|-----------------------------------------------1--2--3--
B|--------------------------------------1--2--3-----------
G|-----------------------------1--2--3--------------------
D|--------------------1--2--3-----------------------------
A|-----------1--2--3--------------------------------------
E|--1--2--3-----------------------------------------------



E|-----------------------------------------------6--7--8--
B|--------------------------------------5--6--7-----------
G|-----------------------------4--5--6--------------------
D|--------------------3--4--5-----------------------------
A|-----------2--3--4--------------------------------------
E|--1--2--3-----------------------------------------------



E|-----------------------------------------------8--7--6--
B|--------------------------------------7--6--5-----------
G|-----------------------------6--5--4--------------------
D|--------------------5--4--3-----------------------------
A|-----------4--3--2--------------------------------------
E|--3--2--1-----------------------------------------------



E|-----------------------------------------------6--8--7--
B|--------------------------------------5--7--6-----------
G|-----------------------------4--6--5--------------------
D|--------------------3--5--4-----------------------------
A|-----------2--4--3--------------------------------------
E|--1--3--2-----------------------------------------------



E|-----------------------------------------------8--6--7--
B|--------------------------------------7--5--6-----------
G|-----------------------------6--4--5--------------------
D|--------------------5--3--4-----------------------------
A|-----------4--2--3--------------------------------------
E|--3--1--2-----------------------------------------------



E|-----------------------------------------------0--2--1--
B|--------------------------------------0--2--1-----------
G|-----------------------------0--2--1--------------------
D|--------------------0--2--1-----------------------------
A|-----------0--2--1--------------------------------------
E|--0--2--1-----------------------------------------------
http://www.guitartabcreator.com
Guitar Tab Creator is intended to store guitar tab created through the tool. It currently does not support in-line text editing. Any text you place in here will be lost. If you need to comment on your tab, please use the "Tab Notes" section located below.