Practice Sheet #1: Groups of Four

(/) Slide Up  (\) Slide Down  (h) Hammer On  (p) Pull Off  (b) Bend (r) Release (v) Vibrato


E|--------------------------------------------------------------1--2--3--4--
B|--------------------------------------------------1--2--3--4--------------
G|--------------------------------------1--2--3--4--------------------------
D|--------------------------1--2--3--4--------------------------------------
A|--------------1--2--3--4--------------------------------------------------
E|--1--2--3--4--------------------------------------------------------------



E|--------------------------------------------------------------6--7--8--9--
B|--------------------------------------------------5--6--7--8--------------
G|--------------------------------------4--5--6--7--------------------------
D|--------------------------3--4--5--6--------------------------------------
A|--------------2--3--4--5--------------------------------------------------
E|--1--2--3--4--------------------------------------------------------------



E|--------------------------------------------------------------9--8--7--6--
B|--------------------------------------------------8--7--6--5--------------
G|--------------------------------------7--6--5--4--------------------------
D|--------------------------6--5--4--3--------------------------------------
A|--------------5--4--3--2--------------------------------------------------
E|--4--3--2--1--------------------------------------------------------------



E|--------------------------------------------------------------6--7--9--8--
B|--------------------------------------------------5--6--8--7--------------
G|--------------------------------------4--5--7--6--------------------------
D|--------------------------3--4--6--5--------------------------------------
A|--------------2--3--5--4--------------------------------------------------
E|--1--2--4--3--------------------------------------------------------------



E|--------------------------------------------------------------6--8--7--6--
B|--------------------------------------------------5--7--6--5--------------
G|--------------------------------------4--6--5--4--------------------------
D|--------------------------3--5--4--3--------------------------------------
A|--------------2--4--3--2--------------------------------------------------
E|--1--3--2--1--------------------------------------------------------------



E|--------------------------------------------------------------1--3--2--4--
B|--------------------------------------------------1--3--2--4--------------
G|--------------------------------------1--3--2--4--------------------------
D|--------------------------1--3--2--4--------------------------------------
A|--------------1--3--2--4--------------------------------------------------
E|--1--3--2--4--------------------------------------------------------------
http://www.guitartabcreator.com
Guitar Tab Creator is intended to store guitar tab created through the tool. It currently does not support in-line text editing. Any text you place in here will be lost. If you need to comment on your tab, please use the "Tab Notes" section located below.