Guitar Scales: C Whole Tone

(/) Slide Up  (\) Slide Down  (h) Hammer On  (p) Pull Off  (b) Bend (r) Release (v) Vibrato


E|-------------------------------------------8--
B|------------------------------------9--11-----
G|--------------------------7--9--11------------
D|-------------------8--10----------------------
A|---------7--9--11-----------------------------
E|--8--10---------------------------------------



E|--------------------------------------2--
B|--------------------------------3--5-----
G|--------------------------3--5-----------
D|-----------------2--4--6-----------------
A|-----------3--5--------------------------
E|--2--4--6--------------------------------
http://www.guitartabcreator.com
Guitar Tab Creator is intended to store guitar tab created through the tool. It currently does not support in-line text editing. Any text you place in here will be lost. If you need to comment on your tab, please use the "Tab Notes" section located below.