Guitar Scales: C Minor Pentatonic

(/) Slide Up  (\) Slide Down  (h) Hammer On  (p) Pull Off  (b) Bend (r) Release (v) Vibrato


E|-------------------------------------8--
B|------------------------------8--11-----
G|-----------------------8--10------------
D|----------------8--10-------------------
A|---------8--10--------------------------
E|--8--11---------------------------------



E|------------------------------------------11--
B|----------------------------------11--13------
G|--------------------------10--12--------------
D|------------------10--13----------------------
A|----------10--13------------------------------
E|--11--13--------------------------------------



E|--------------------------------1--
B|--------------------------1--4-----
G|--------------------0--3-----------
D|--------------1--3-----------------
A|--------1--3-----------------------
E|--1--3-----------------------------



E|--------------------------------3--
B|--------------------------4--6-----
G|--------------------3--5-----------
D|--------------3--5-----------------
A|--------3--6-----------------------
E|--3--6-----------------------------



E|--------------------------------6--
B|--------------------------6--8-----
G|--------------------5--8-----------
D|--------------5--8-----------------
A|--------6--8-----------------------
E|--6--8-----------------------------
http://www.guitartabcreator.com
Guitar Tab Creator is intended to store guitar tab created through the tool. It currently does not support in-line text editing. Any text you place in here will be lost. If you need to comment on your tab, please use the "Tab Notes" section located below.