Guitar Scales: C Lydian Flat-Seven

(/) Slide Up  (\) Slide Down  (h) Hammer On  (p) Pull Off  (b) Bend (r) Release (v) Vibrato


E|---------------------------------------------6--8--
B|-----------------------------------7--8--10--------
G|-----------------------------7--9------------------
D|-------------------7--8--10------------------------
A|---------7--9--10----------------------------------
E|--8--10--------------------------------------------



E|---------------------------------------------------8--10--
B|-------------------------------------------10--12---------
G|--------------------------------9--11--12-----------------
D|---------------------9--10--12----------------------------
A|----------9--10--12---------------------------------------
E|--10--12--------------------------------------------------



E|------------------------------------------------------12--
B|------------------------------------------12--13--15------
G|----------------------------------12--14------------------
D|----------------------12--14--16--------------------------
A|--------------12--14--------------------------------------
E|--12--14--15----------------------------------------------



E|-----------------------------------------2--3--
B|-----------------------------------3--5--------
G|--------------------------2--4--5--------------
D|-----------------2--4--5-----------------------
A|--------2--3--5--------------------------------
E|--3--5-----------------------------------------



E|--------------------------------------------5--
B|-----------------------------------5--7--8-----
G|-----------------------------5--7--------------
D|--------------------5--7--9--------------------
A|-----------5--7--9-----------------------------
E|--5--7--8--------------------------------------
http://www.guitartabcreator.com
Guitar Tab Creator is intended to store guitar tab created through the tool. It currently does not support in-line text editing. Any text you place in here will be lost. If you need to comment on your tab, please use the "Tab Notes" section located below.