Guitar Scales: C Locrian

(/) Slide Up  (\) Slide Down  (h) Hammer On  (p) Pull Off  (b) Bend (r) Release (v) Vibrato


E|---------------------------------------------------8--
B|--------------------------------------------9--11-----
G|---------------------------------8--10--11------------
D|----------------------8--10--11-----------------------
A|------------8--9--11----------------------------------
E|--8--9--11--------------------------------------------



E|----------------------------------------------------------11--
B|----------------------------------------------11--13--14------
G|--------------------------------------11--13------------------
D|--------------------------11--13--15--------------------------
A|--------------11--13--15--------------------------------------
E|--11--13--14--------------------------------------------------



E|--------------------------------------------1--
B|-----------------------------------1--2--4-----
G|-----------------------------1--3--------------
D|--------------------1--3--4--------------------
A|-----------1--3--4-----------------------------
E|--1--2--4--------------------------------------



E|--------------------------------------------2--
B|--------------------------------------4--6-----
G|-----------------------------3--5--6-----------
D|--------------------3--4--6--------------------
A|-----------3--4--6-----------------------------
E|--2--4--6--------------------------------------



E|----------------------------------------------6--
B|----------------------------------------7--9-----
G|------------------------------6--8--10-----------
D|--------------------6--8--10---------------------
A|-----------6--8--9-------------------------------
E|--6--8--9----------------------------------------
http://www.guitartabcreator.com
Guitar Tab Creator is intended to store guitar tab created through the tool. It currently does not support in-line text editing. Any text you place in here will be lost. If you need to comment on your tab, please use the "Tab Notes" section located below.