Guitar Scales: C Jazz Melodic Minor

(/) Slide Up  (\) Slide Down  (h) Hammer On  (p) Pull Off  (b) Bend (r) Release (v) Vibrato


E|-----------------------------------------------------8--
B|------------------------------------------8--10--12-----
G|-----------------------------------8--10----------------
D|------------------------9--10--12-----------------------
A|-------------8--10--12----------------------------------
E|--8--10--11---------------------------------------------



E|----------------------------------------------------------11--
B|----------------------------------------------12--13--15------
G|--------------------------------------12--14------------------
D|--------------------------12--13--15--------------------------
A|--------------12--14--15--------------------------------------
E|--11--13--15--------------------------------------------------



E|--------------------------------------------1--
B|--------------------------------------3--4-----
G|-----------------------------2--4--5-----------
D|--------------------1--3--5--------------------
A|-----------2--3--5-----------------------------
E|--1--3--5--------------------------------------



E|--------------------------------------------3--
B|--------------------------------------4--6-----
G|-----------------------------4--5--7-----------
D|--------------------3--5--7--------------------
A|-----------3--5--6-----------------------------
E|--3--5--7--------------------------------------



E|-------------------------------------------------7--
B|------------------------------------------8--10-----
G|--------------------------------7--8--10------------
D|----------------------7--9--10----------------------
A|------------6--8--10--------------------------------
E|--7--8--10------------------------------------------
http://www.guitartabcreator.com
Guitar Tab Creator is intended to store guitar tab created through the tool. It currently does not support in-line text editing. Any text you place in here will be lost. If you need to comment on your tab, please use the "Tab Notes" section located below.