Guitar Scales: C Diminished (Whole Half)

(/) Slide Up  (\) Slide Down  (h) Hammer On  (p) Pull Off  (b) Bend (r) Release (v) Vibrato


E|-----------------------------------------------------7--8--
B|-------------------------------------------7--9--10--------
G|---------------------------------7--8--10------------------
D|-----------------------7--9--10----------------------------
A|-------------8--9--11--------------------------------------
E|--8--10--11------------------------------------------------



E|-----------------------------------------------2--4--
B|--------------------------------------3--4--6--------
G|-----------------------------2--4--5-----------------
D|--------------------3--4--6--------------------------
A|-----------3--5--6-----------------------------------
E|--4--5--7--------------------------------------------
http://www.guitartabcreator.com
Guitar Tab Creator is intended to store guitar tab created through the tool. It currently does not support in-line text editing. Any text you place in here will be lost. If you need to comment on your tab, please use the "Tab Notes" section located below.