Guitar Scales: C Blues Scale

(/) Slide Up  (\) Slide Down  (h) Hammer On  (p) Pull Off  (b) Bend (r) Release (v) Vibrato


E|--------------------------------------------------8--
B|-------------------------------------------8--11-----
G|-----------------------------8--9--10--11------------
D|----------------------8--10--------------------------
A|---------7--8--9--10---------------------------------
E|--8--11----------------------------------------------



E|----------------------------------------------------------11--
B|--------------------------------------------------11--13------
G|--------------------------------------10--11--12--------------
D|--------------------------10--13--14--------------------------
A|------------------10--13--------------------------------------
E|--11--12--13--14----------------------------------------------



E|--------------------------------------------------11--12--13--
B|------------------------------------------11--13--------------
G|----------------------------------11--12----------------------
D|----------------------13--14--15------------------------------
A|--------------13--15------------------------------------------
E|--13--14--15--------------------------------------------------



E|-----------------------------------------2--3--
B|--------------------------------4--5--6--------
G|--------------------------3--5-----------------
D|--------------2--3--4--5-----------------------
A|--------3--6-----------------------------------
E|--3--6-----------------------------------------



E|--------------------------------------------6--
B|--------------------------------5--6--7--8-----
G|--------------------------5--8-----------------
D|--------------------5--8-----------------------
A|--------6--7--8--9-----------------------------
E|--6--8-----------------------------------------
http://www.guitartabcreator.com
Guitar Tab Creator is intended to store guitar tab created through the tool. It currently does not support in-line text editing. Any text you place in here will be lost. If you need to comment on your tab, please use the "Tab Notes" section located below.