Guitar Scale: D Major Scale

(/) Slide Up  (\) Slide Down  (h) Hammer On  (p) Pull Off  (b) Bend (r) Release (v) Vibrato


E|-----------------------------------------------------------------
B|-----------------------------------------------------------------
G|-----------------------------------------------------------------
D|--------------------------11--12--14--12-------------------------
A|--------------10--12--14------------------16--14--12/10----------
E|--10--12--14---------------------------------------------14--12--



E|-----------------------------------------------------------------
B|-----------------------------------------------------------------
G|------------------------------11/12------------------------------
D|------------------11--12--14---------16--14----------------------
A|------10--12--14-----------------------------17--16--14----------
E|--14-----------------------------------------------------17--15--



E|-----------------------------------------------------------------
B|-----------------------------------------------------------------
G|------------------------------14--16--14/12----------------------
D|------------------14--16--17-----------------16--14--12----------
A|------14--16--17-----------------------------------------16--14--
E|--17-------------------------------------------------------------



E|-----------------------------------------------------------------
B|---------------------------------15--14--12----------------------
G|---------------------14--16--18--------------14--12--11----------
D|------12--14--16/17--------------------------------------14--12--
A|--16-------------------------------------------------------------
E|-----------------------------------------------------------------



E|-----------------------------------------------------------------
B|---------------------14--15--17--19--17--------------------------
G|---------12--14--16----------------------19--18--16--------------
D|--14/16----------------------------------------------19--17--16--
A|-----------------------------------------------------------------
E|-----------------------------------------------------------------



E|------------------------------15--17--15--16----------------------
B|------------------15--17--19------------------17--15--14----------
G|------14--16--18------------------------------------------16--14--
D|--17--------------------------------------------------------------
A|------------------------------------------------------------------
E|------------------------------------------------------------------



E|---------------------15--17--19/21--19--17----------------------
B|------14--15--17/19-------------------------20--19--17----------
G|--16----------------------------------------------------19--18--
D|----------------------------------------------------------------
A|----------------------------------------------------------------
E|----------------------------------------------------------------



E|------------------17--19--21--21--21--19--17--15------------------
B|------17--19--20----------------------------------19--17--15------
G|--19----------------------------------------------------------18--
D|------------------------------------------------------------------
A|------------------------------------------------------------------
E|------------------------------------------------------------------



E|----------------------15--17--19--17--15/14----------------------
B|----------15--17--19-------------------------17--15--14----------
G|--16--18-------------------------------------------------16--14--
D|-----------------------------------------------------------------
A|-----------------------------------------------------------------
E|-----------------------------------------------------------------



E|------------------------------15--14------------------------------
B|----------------------17--19----------17--15--14------------------
G|----------16--18--19------------------------------16--14----------
D|--17--19--------------------------------------------------17--16--
A|------------------------------------------------------------------
E|------------------------------------------------------------------



E|-----------------------------------------------------------------
B|----------------------14--15--17--15-----------------------------
G|----------12--14--16------------------18--16---------------------
D|--14--16--------------------------------------19--17--16/14------
A|-------------------------------------------------------------17--
E|-----------------------------------------------------------------



E|-----------------------------------------------------------------
B|------------------------------14--12--10-------------------------
G|------------------12--14--16--------------12--11--9--------------
D|------12--14--16-------------------------------------12--11------
A|--16---------------------------------------------------------14--
E|-----------------------------------------------------------------



E|---------------------------------------------------------------
B|---------------------------------------------------------------
G|----------------------------14/12------------------------------
D|----------------14--16--17---------16--14--12--11--------------
A|--12--14/16/17-------------------------------------14--12--10--
E|---------------------------------------------------------------



E|---------------------------------------------------------------------
B|---------------------------------------------------------------------
G|------------------------------11--9----------------------------------
D|------------------11--12--14---------12--11--------------------------
A|----------12--14-----------------------------14--12--10--------------
E|--14--15-------------------------------------------------14--12--10--
http://www.guitartabcreator.com
Guitar Tab Creator is intended to store guitar tab created through the tool. It currently does not support in-line text editing. Any text you place in here will be lost. If you need to comment on your tab, please use the "Tab Notes" section located below.