Guitar Scale: Blues Scales G

(/) Slide Up  (\) Slide Down  (h) Hammer On  (p) Pull Off  (b) Bend (r) Release (v) Vibrato


E|--------------------------------------3--6--3--------------------------------------
B|--------------------------------3--6-----------6--3--------------------------------
G|-----------------------3--5--6-----------------------6--5--3-----------------------
D|-----------------3--5-----------------------------------------5--3-----------------
A|--------3--4--5-----------------------------------------------------5--4--3--------
E|--3--6-----------------------------------------------------------------------6--3--



E|--------------------------------------5--8--5--------------------------------------
B|--------------------------------5--8-----------8--5--------------------------------
G|-----------------------5--7--8-----------------------8--7--5-----------------------
D|-----------------5--7-----------------------------------------7--5-----------------
A|--------5--6--7-----------------------------------------------------7--6--5--------
E|--5--8-----------------------------------------------------------------------8--5--
http://www.guitartabcreator.com
Guitar Tab Creator is intended to store guitar tab created through the tool. It currently does not support in-line text editing. Any text you place in here will be lost. If you need to comment on your tab, please use the "Tab Notes" section located below.