Yesterday

(/) Slide Up  (\) Slide Down  (h) Hammer On  (p) Pull Off  (b) Bend (r) Release (v) Vibrato

Stave 1:

E|-----------------|-----------------2--3--2--0--0-----0-----0--|--
B|-----------------|--------2--4--5--------0-----------0-----0--|--
G|--2--0--0-----0--|-----2-----2-----------0-----------0-----0--|--
D|--0--0--0-----0--|-----4-----4--------------------2-----0-----|--
A|-----------------|-----------2--------------------------------|--
E|--3--------3-----|--2--------------------0--0--0--------------|--

Stave 2:

E|-----0--0-----------------|-----------------------------------------|--
B|-----1--1-----3--1--0-----|--1--0--0-----------0--------------0--0--|--
G|-----0--0--------------2--|--0--0--0-----2--0-----2--------0-----0--|--
D|-----------0--------------|--0--0--0--------------------2--------0--|--
A|--3-----------------------|--------------------------0-----3--------|--
E|--------------------------|--3--------3--2--0--------------------3--|--

Stave 3:

E|--------------0--|--2--3--2--0--2--2--0--|----------|--------------------------------
B|--0--0--0--0--0--|--3--1--0-----1--1-----|----3--1--|--------------------------------
G|--2--2--2--2--0--|--2--0--0-----0--0-----|----2-----|--------------------------------
D|--2--2--1--1-----|--0--------------------|----0-----|--------------------------------
A|--------2--------|-----3--2-----0--------|----------|--------------------------------
E|--2-----------0--|-----------------------|----------|--------------------------------

Stave 4:

E|-----------------------|--------------0--|--2--3--2--0--2--2--0--|--
B|--0--0-----0-----0-----|--0--0--0--0--0--|--3--1--0-----1--1-----|--
G|--0--0-----0-----0-----|--2--2--2--2--0--|--2--0--0-----0--0-----|--
D|--0--0-----0-----0-----|--2--2--1--1-----|--0--------------------|--
A|-----------------------|--------2--------|-----3--2-----0--------|--
E|--3-----3-----3-----3--|--2-----------0--|-----------------------|--

Stave 5:

E|-----2--|--3-----------
B|--3-----|--0--3--1--0--
G|--2-----|--0-----------
D|--0-----|--------------
A|--------|--------------
E|--------|--3-----------

http://www.guitartabcreator.com
Guitar Tab Creator is intended to store guitar tab created through the tool. It currently does not support in-line text editing. Any text you place in here will be lost. If you need to comment on your tab, please use the "Tab Notes" section located below.