Tetris Tab

(/) Slide Up  (\) Slide Down  (h) Hammer On  (p) Pull Off  (b) Bend (r) Release (v) Vibrato


E|--12-----10-12-10--------------12-10-13-----10-12---------13-17-15-13-12--12-10-----------10-12
B|----12-13--------13-12-10-10-13--------12-13-----13-----15--------------13-----13-12-12-13-----
G|---------------------------------------------------14-14---------------------------------------
D|-----------------------------------------------------------------------------------------------
A|-----------------------------------------------------------------------------------------------
E|-----------------------------------------------------------------------------------------------

E|---------12-----10-12-10--------------12-10--------10-12---------13-17-15-13-12--12-10---------
B|--13-------12-13--------13-12-10-10-13-----13-12-13-----13-----15--------------13-----13-12----
G|----14-14-------------------------------------------------14-14--------------------------------
D|-----------------------------------------------------------------------------------------------
A|-----------------------------------------------------------------------------------------------
E|-----------------------------------------------------------------------------------------------

E|-------10-12----------------------------------------------12-----10-12-10--------------12-10--
B|--12-13-----13----------------------------------------------12-13--------13-12-10-10-13-------
G|--------------14-14---------------------------------------------------------------------------
D|-------------------14------------------14------------19-18------------------------------------
A|---------------------15-17-----------14--15-17-----19-----------------------------------------
E|--------------------------19-20-17-16---------19-20-------------------------------------------

E|----------10-12---------13-17-15-13-12--12-10-----------10-12-------
B|--13-12-13-----13-----15--------------13-----13-12-12-13-----13-----
G|-----------------14-14-----------------------------------------14-14
D|--------------------------------------------------------------------
A|--------------------------------------------------------------------
E|--------------------------------------------------------------------

http://www.guitartabcreator.com
Guitar Tab Creator is intended to store guitar tab created through the tool. It currently does not support in-line text editing. Any text you place in here will be lost. If you need to comment on your tab, please use the "Tab Notes" section located below.