All Apologies- Nirvana

(/) Slide Up  (\) Slide Down  (h) Hammer On  (p) Pull Off  (b) Bend (r) Release (v) Vibrato


E|---------------------------------------------------------------------------------------------
B|---------------------------------------------------------------------------------------------
G|-----------------------------------------------------------------11-11-9---------------------
D|------------------------------12-12-10-9----------------------------0--0-12------------------
A|--9-9-10-9-12-12-10-9-----10-9------------9-10--12-12-10-9-9-10-9-----------9-10--12-12-10-9-
E|--0-------------------0-0----0----------0------0-0--------0-----0----------0----0------------

E|--------------------------------------------------------------------------------------------
B|--------------------------------------------------------------------------------------------
G|--------------------------------------------11-11-9-------------------------------12--------
D|---------12-12-10-9--------------------------------12--------------------------12-12-10-9---
A|---9-10-9------0----9-10-9-12-12-10-9-9-10-9----------9-10-10/12-12-10-9-9-10-9------------9
E|--0-----0----------0-----0-----------0-----0---------0----0-------------0-----0----------0-0

E|--------------------------------------------------------------------------------------------
B|--------------------------------------------------------------------------------------------
G|--------------------------------------------------------------------------------------------
D|-----------------------12-12-10-9--------------------------12-12-10-9-----------------------
A|--10-9-12-10-9--9-10-9------------9-10-9-12-12-10-9-9-10-9----0------9-9-10---12-12-10-9--9-
E|-----0-0------0-0----0-------0---0-----0-----------0-----0-----------0------0-0---------0-0-

E|--------------------------------------------------------------------------------------------
B|--------------------------------------------------------------------------------------------
G|----------12--------------------------------------------------------------------------------
D|-------12-12-10-9-------------------------12-12-10-9---------------------------12-12-10-9---
A|--10-9-------0---9-9-10--12-12-10-9-9-10-9------0---9-9-10-9-12-12-10-9--9-10-9------0---9-9
E|-----0-----------0-----0-0---------0-----0----------0------0-0---------0-0----0----------0--

E|----------------------------------------------------------------------------------------
B|----------------------------------------------------------------------------------------
G|--------------------------------------------------------------------------------------11
D|--------------------------12-12-10-9----------------------------------------------------10measures
A|--10--12-12-10-9---9-10-9-------0------9-10-9-12-12-10-9--9-10-9-12-12-10-9--9-10-9-10--of rest
E|----0-0----------0-0----0------------0-0----0-------0---0-0----0-----------0-0----0-----

E|-----------------------------------------------------------------------------------------
B|-----------------------------------------------------------------------------------------
G|-----------------------------------------------------------11-11-9-----------------------
D|---------------------------12-12-10-9-------------------------0---12---------------------
A|--9-9-10-9-12-12-10-9-9-10------------9-10-12-12-10-9-9-10-----------9-10-12-12-10-9-9-10
E|--0------------------0----0----------0----0----------0----0---------0----0----------0----

E|-----------------------------------------------------------------------------------------
B|-----------------------------------------------------------------------------------------
G|-----------------------------------------12----------------------------------------------
D|---12-12-10-9-------------------------12-12-10-9-------------------------12-12-10-9------
A|--9-------------10-9-12-12-10-9---10-9-----------9-9-10--12-12-10-9-9-10-----------9-9-10
E|--0----------0-0---0-----------0-0---0-----------0-----0-0---------0----0----------0-----

E|-----------------------------------------------------------------------------------------
B|-----------------------------------------------------------------------------------------
G|------------------------12---------------------------------------------------------------
D|------------------------12-10-9------------------------12-12-10-9----------12------------
A|---12-12-12-9----10-9-11-------9-9-10-12-12-12-9-9-10-9---0-------9-10--12-12-10-9--9-10-
E|--0-----------0-0---0----------0-----0----------0-----0----------0----0-0----------0----0

E|---------------
B|---------------
G|------4-4------
D|------5-5------
A|------5-5------
E|--0-0-5-5-0----about 54 measures of rest
Guitar Tab Creator is intended to store guitar tab created through the tool. It currently does not support in-line text editing. Any text you place in here will be lost. If you need to comment on your tab, please use the "Tab Notes" section located below.