Scorpions - Wind Of Change

(/) Slide Up  (\) Slide Down  (h) Hammer On  (p) Pull Off  (b) Bend (r) Release (v) Vibrato

E|-5-7-8--5-7-8-10-8--5-7-8--5-7-8-10-8--8-10-12-13-12-8-10--5-8-7--
B|------------------------------------------------------------------
G|------------------------------------------------------------------
D|------------------------------------------------------------------
A|------------------------------------------------------------------
E|------------------------------------------------------------------



E|-----------------------------------------------------------------------------
B|-------------------------------------8---------------------------------------
G|-----5--7--9--5--7---------7--9--10-----9----------10--9--7--9--7------------
D|--5---------------------7----------------------10------------------7--10--9--
A|-----------------------------------------------------------------------------
E|-----------------------------------------------------------------------------



E|----------------------------------------------------------------------
B|----------------------------------8-----------------------------------
G|-----5--7--9--5--7------7--9--10-----9------10--9--7--9--7------------
D|--5---------------------------------------------------------7--10--9--
A|----------------------------------------------------------------------
E|----------------------------------------------------------------------



E|-5-7-8--5-7-8-10-8--5-7-8--5-7-8-10-8--8-10-12-13-12-8-10--5-8-7--
B|------------------------------------------------------------------
G|------------------------------------------------------------------
D|------------------------------------------------------------------
A|------------------------------------------------------------------
E|------------------------------------------------------------------



E|-----------------------------------------------------------------------------
B|-------------------------------------8---------------------------------------
G|-----5--7--9--5--7---------7--9--10-----9----------10--9--7--9--7------------
D|--5---------------------7----------------------10------------------7--10--9--
A|-----------------------------------------------------------------------------
E|-----------------------------------------------------------------------------



E|-------------------------------------------------------------------------
B|-------------------------------------8-----------------------------------
G|-----5--7--9--5--7---------7--9--10-----9------10--9--7--9--7------------
D|--5---------------------7--------------------------------------7--10--9--
A|-------------------------------------------------------------------------
E|-------------------------------------------------------------------------



E|----------------------------------------------------------------------------------------------
B|--------------------------------8---------------------------------------------------8---------
G|--9--7----7--9--10--10--10--10-----10------9--7--9--7--7------7--9--10--10--10--10-----10-----
D|----------------------------------------------------------------------------------------------
A|----------------------------------------------------------------------------------------------
E|----------------------------------------------------------------------------------------------



E|---------------------------------
B|---------------------------------
G|--9--7--9--------------10--9--7--
D|---------------10--10------------
A|---------------------------------
E|---------------------------------



E|-----------------------------------------------------------------------------
B|-------------------------------------8---------------------------------------
G|-----5--7--9--5--7---------7--9--10-----9----------10--9--7--9--7------------
D|--5---------------------7----------------------10------------------7--10--9--
A|-----------------------------------------------------------------------------
E|-----------------------------------------------------------------------------



E|-----------------------------------------------------------------------------
B|-------------------------------------8---------------------------------------
G|-----5--7--9--5--7---------7--9--10-----9----------10--9--7--9--7------------
D|--5---------------------7----------------------10------------------7--10--9--
A|-----------------------------------------------------------------------------
E|-----------------------------------------------------------------------------



E|-------------------------------------------------------------------------------------------
B|--------------------------------8---------------------------------------------------8------
G|--9--7----7--9--10--10--10--10-----10------9--7--9--7--7------7--9--10--10--10--10-----10--
D|-------------------------------------------------------------------------------------------
A|-------------------------------------------------------------------------------------------
E|-------------------------------------------------------------------------------------------



E|---------------------------------
B|---------------------------------
G|--9--7--9--------------10--9--7--
D|---------------10--10------------
A|---------------------------------
E|---------------------------------



E|-------------------------------------------------------------------------------------------
B|--------------------------------8---------------------------------------------------8------
G|--9--7----7--9--10--10--10--10-----10------9--7--9--7--7------7--9--10--10--10--10-----10--
D|-------------------------------------------------------------------------------------------
A|-------------------------------------------------------------------------------------------
E|-------------------------------------------------------------------------------------------



E|---------------------------------
B|---------------------------------
G|--9--7--9--------------10--9--7--
D|---------------10--10------------
A|---------------------------------
E|---------------------------------



E|-------------------------------------------------------------------------
B|-------------------------------------------------------------------------
G|---------------9--7---------------------------------------------9--7-----
D|--7--7--7--10------------9--9--9--10--9--7------7--7--7--7--10-----------
A|-------------------------------------------------------------------------
E|-------------------------------------------------------------------------



E|-------------------------------------------------------------------------------
B|-------------------------------------------------------------------------------
G|---------------------7--9------9--9--9--9--10--9--7------7--7--9--10--9--7--9--
D|--9--9--9--9--9--10------------------------------------------------------------
A|-------------------------------------------------------------------------------
E|-------------------------------------------------------------------------------
http://www.guitartabcreator.com
Guitar Tab Creator is intended to store guitar tab created through the tool. It currently does not support in-line text editing. Any text you place in here will be lost. If you need to comment on your tab, please use the "Tab Notes" section located below.