Our Song <3

(/) Slide Up  (\) Slide Down  (h) Hammer On  (p) Pull Off  (b) Bend (r) Release (v) Vibrato


E|-------------------------------------------------------
B|------------------------------3------------------2-----
G|-------------------------------------------------------
D|--2---------2-----------2---------------------------2--
A|-----3---------2-----------3---------------------------
E|-------------------------------------------------------



E|--------------------------------------------------------------
B|--------3---------------2------------------3---------------2--
G|--------------------------------------------------------------
D|--2------------------2---------------2------------------2-----
A|-----3----------------------------------3---------------------
E|--------------------------------------------------------------



E|---------------------------------------------------------------
B|--------3------------------5----------------8---------------2--
G|---------------------------------------------------------------
D|--2------------------4----------------5------------------2-----
A|-----3------------------5----------------7---------------------
E|---------------------------------------------------------------



E|---------------------------------------------------------3------------------------------------
B|--------3----------5--------8-----------2---------------------------------3-----------2-------
G|----------------------------------------------------------------------------------------------
D|--2----------4--------5--------------2------------------------------2--------------2----------
A|-----3----------5--------7-------------------------2-------------------3----------------------
E|------------------------------------------------------3---------------------------------------



E|-----------------------------3----------------------------------------------------
B|--------3-----------------------------------3-----------2--------------3----------
G|----------------------------------------------------------------------------------
D|--2-----------------------------------2--------------2-----------2----------------
A|-----3-----------------2-----------------3--------------------------3-------------
E|--------------------------3-------------------------------------------------------



E|--------------------------------3--------------------------------------------------
B|-----------------------------------------------3-------------2------------------3--
G|-----------------------------------------------------------------------------------
D|--2-----------2--------------------------2----------------2---------------2--------
A|-----2-----------3--------2-----------------3--------------------------------3-----
E|-----------------------------3-----------------------------------------------------



E|-----------------------------------3-----------2------------------------------------
B|--------------------3-----------------------------3---------------3--------------3--
G|--------------------------------------------2---------------------------------------
D|--2-----------2------------------------------------------------------------2--------
A|-----2-----------3-----------2---------------------------------2--------------3-----
E|--------------------------------3---------------------------------------------------
http://www.guitartabcreator.com
Guitar Tab Creator is intended to store guitar tab created through the tool. It currently does not support in-line text editing. Any text you place in here will be lost. If you need to comment on your tab, please use the "Tab Notes" section located below.