Η γνώση των νεκρών by Georges Kastanidis

(/) Slide Up  (\) Slide Down  (h) Hammer On  (p) Pull Off  (b) Bend (r) Release (v) Vibrato

E|--------------------------------------------------|--------------------------------------------------|--
B|-----0--0--0-----0--0--0-----0--0--0-----0--0--0--|-----0--0--0-----0--0--0-----0--0--0-----0--0--0--|--
G|--------------------------------------------------|--------------------------------------------------|--
D|--------------------------------------------------|--------------------------------------------------|--
A|--------------------------------------------------|--------------------------------------------------|--
E|--0-----------0-----------0-----------0-----------|--0-----------0-----------0-----------0-----------|--



E|--------------------------------------------------|--------------------------------------------------|--
B|-----0--0--0-----0--0--0-----0--0--0-----0--0--0--|-----0--0--0-----0--0--0-----0--0--0-----0--0--0--|--
G|--------------------------------------------------|--------------------------------------------------|--
D|--------------------------------------------------|--------------------------------------------------|--
A|--------------------------------------------------|--0-----------0-----------0-----------0-----------|--
E|--0-----------0-----------0-----------0-----------|--------------------------------------------------|--



E|--------------------------------------------------|--------------------------------------------------|--
B|-----0--0--0-----0--0--0-----0--0--0-----0--0--0--|-----0--0--0-----0--0--0-----0--0--0-----0--0--0--|--
G|--------------------------------------------------|--------------------------------------------------|--
D|--------------------------------------------------|--------------------------------------------------|--
A|--0-----------0-----------0-----------0-----------|--------------------------------------------------|--
E|--------------------------------------------------|--0-----------0-----------0-----------0-----------|--



E|--------------------------------------------------|--------------------------------------------------|--
B|-----0--0--0-----0--0--0-----0--0--0-----0--0--0--|-----0--0--0-----0--0--0-----0--0--0-----0--0--0--|--
G|--------------------------------------------------|--------------------------------------------------|--
D|--------------------------------------------------|--------------------------------------------------|--
A|--------------------------------------------------|--0-----------0-----------0-----------0-----------|--
E|--0-----------0-----------0-----------0-----------|--------------------------------------------------|--



E|--------------------------------------------------|--------------------------------------------------|--
B|-----0--0--0-----0--0--0-----0--0--0-----0--0--0--|-----0--0--0-----0--0--0-----0--0--0-----0--0--0--|--
G|--------------------------------------------------|--------------------------------------------------|--
D|--------------------------------------------------|--------------------------------------------------|--
A|--0-----------0-----------0-----------0-----------|--3-----------3-----------3-----------3-----------|--
E|--------------------------------------------------|--------------------------------------------------|--



E|--------------------------------------------------|--------------------------------------------------|--------------
B|-----0--0--0-----0--0--0-----0--0--0-----0--0--0--|-----0--0--0-----0--0--0-----0--0--0-----0--0--0--|-----0--0--0--
G|--------------------------------------------------|--------------------------------------------------|--------------
D|--------------------------------------------------|--------------------------------------------------|--------------
A|--5-----------5-----------5-----------5-----------|--3-----------3-----------3-----------3-----------|--5-----------
E|--------------------------------------------------|--------------------------------------------------|--------------



E|--------------------------------------|--------------------------------------------------|--------------------------
B|-----0--0--0-----0--0--0-----0--0--0--|-----0--0--0-----0--0--0-----0--0--0-----0--0--0--|-----0--0--0-----0--0--0--
G|--------------------------------------|--------------------------------------------------|--------------------------
D|--------------------------------------|--------------------------------------------------|--------------------------
A|--5-----------5-----------5-----------|--7-----------7-----------7-----------7-----------|--7-----------7-----------
E|--------------------------------------|--------------------------------------------------|--------------------------



E|--------------------------|--------------------------------------------------|-----------------------------------------
B|-----0--0--0-----0--0--0--|-----0--0--0-----0--0--0-----0--0--0-----0--0--0--|-----0--0--0-----0--0--0-----0--0--0-----
G|--------------------------|--------------------------------------------------|-----------------------------------------
D|--------------------------|--------------------------------------------------|-----------------------------------------
A|--7-----------7-----------|--------------------------------------------------|-----------------------------------------
E|--------------------------|--0-----------0-----------0-----------0-----------|--0-----------0-----------0--------------



E|--------------|------------------------------------------------------|-----------------------------------------
B|-----0--0--0--|------0--0--0------0--0--0------0--0--0------0--0--0--|------0--0--0------0--0--0------0--0--0--
G|--------------|------------------------------------------------------|-----------------------------------------
D|--------------|------------------------------------------------------|-----------------------------------------
A|--------------|--15-----------15-----------15-----------15-----------|--17-----------17-----------17-----------
E|--0-----------|------------------------------------------------------|-----------------------------------------



E|---------------|------------------------------------------------------|-----------------------------------------
B|------0--0--0--|------0--0--0------0--0--0------0--0--0------0--0--0--|------0--0--0------0--0--0------0--0--0--
G|---------------|------------------------------------------------------|-----------------------------------------
D|---------------|------------------------------------------------------|-----------------------------------------
A|--17-----------|--15-----------15-----------15-----------15-----------|--17-----------17-----------17-----------
E|---------------|------------------------------------------------------|-----------------------------------------



E|---------------|------------------------------------------------------|-----------------------------------------
B|------0--0--0--|------0--0--0------0--0--0------0--0--0------0--0--0--|------0--0--0------0--0--0------0--0--0--
G|---------------|------------------------------------------------------|-----------------------------------------
D|---------------|------------------------------------------------------|-----------------------------------------
A|--17-----------|--19-----------19-----------19-----------19-----------|--19-----------19-----------19-----------
E|---------------|------------------------------------------------------|-----------------------------------------



E|---------------|--|--------------------------------------------------|--------------------------------------
B|------0--0--0--|--|-----0--0--0-----0--0--0-----0--0--0-----0--0--0--|-----0--0--0-----0--0--0-----0--0--0--
G|---------------|--|--------------------------------------------------|--------------------------------------
D|---------------|--|--------------------------------------------------|--------------------------------------
A|--19-----------|--|--------------------------------------------------|--------------------------------------
E|---------------|--|--0-----------0-----------0-----------0-----------|--3-----------2-----------0-----------



E|--------------------------------------|--------------------------------------------------------------------------|--
B|-----0--0--0-----0--0--0-----0--0--0--|-----0--0--0-----0--0--0-----0--0--0-----0--0--0-----0--0--0-----0--0--0--|--
G|--------------------------------------|--------------------------------------------------------------------------|--
D|--------------------------------------|--------------------------------------------------------------------------|--
A|--------------------------------------|--------------------------------------------------------------------------|--
E|--0-----------0-----------0-----------|--3-----------2-----------0-----------0-----------0-----------0-----------|--



E|-----------------------------|---|--|--
B|-----0--0--0-----0--0--0-----|---|--|--
G|-----------------------------|---|--|--
D|-----------------------------|---|--|--
A|-----------------------------|---|--|--
E|--3-----------2-----------0--|--/|--|--
http://www.guitartabcreator.com
Guitar Tab Creator is intended to store guitar tab created through the tool. It currently does not support in-line text editing. Any text you place in here will be lost. If you need to comment on your tab, please use the "Tab Notes" section located below.