Soulmate

(/) Slide Up  (\) Slide Down  (h) Hammer On  (p) Pull Off  (b) Bend (r) Release (v) Vibrato


E|---------------------------------|---------------------------------|-
B|---------0h1-----0h1-----0h1-----|---------0h1-----0h1-----0h1-----|-
G|-----2-------2-------2-------2---|-----2-------2-------2-----------|-
D|---2-----------2-------2-------2-|---2-----------2-------2---------|-
A|-0-----0-------------------------|-0-----0---------------------0-2-|-
E|---------------------------------|---------------------------------|-



E|-----------------------------------------------------------------|---
B|-------1p0-----0-------3p0-----0-------1p0-----0-------0h1-------|---
G|-----0-----0---------0-----0---------2-----2---------2-----2-----|---
D|---2---------2-----0---------0-----2---------2-----2-------------|---
A|-3---------------2---------------0---------------0-----------0-2-|---
E|-----------------------------------------------------------------|---



E|-----------------------------------------------------------------|-
B|---------1p0-------------3p0-------------1p0-----------0h1-------|-
G|-----0-------0-------0-------0-------2-------2-------2-----2-----|-
D|---2---2-------2---0---0-------0---2---2-------2---2-------------|-
A|-3---------------2---------------0---------------0-----0-----0-2-|-
E|-----------------------------------------------------------------|-



E|---------------------------------------------------------------------|-
B|-----------1p0-------------3p0---------------1p0-------------0h1-----|-
G|-------0-------0-------0-------0---------2-------2-------2-----------|-
D|---0h2---2-------2---0-----------0---0h2---2-------2---2-------------|-
A|-3---------3-------2-----2---------0---------0-------0-----0-----0-2-|-
E|---------------------------------------------------------------------|-



E|-----------------------------------------------------------------|-
B|-------1p0-----0-------0h1-------------1p0-----0-------0h1-------|-
G|-----2-----2---------2-----2---------2-----2---------2-----2-----|-
D|---3---------3-----3---------------2---------2-----2-------------|-
A|-3-----3---------3-----3-----3-2-0-----0---------0-----0-----0-2-|-
E|-----------------------------------------------------------------|-



E|-------------------------1---1-0-0-------------------------------|-
B|-------1p0-----0-----1-----1-1-0-1-------1p0-----------0h1-------|-
G|-----2-----2-----------2-----2-0-2---2-------2-------2-----2-----|-
D|---3---------3-----3-----3---------2---2-------2---2-------------|-
A|-3-----3---------3-----------3-2-0-------0-------0-----0-----0-2-|-
E|-----------------------------------------------------------------|-



E|-----------------------------------------------------------------|-
B|-------1p0-----0-------3p0-----0-------1p0-----0-------0h1-------|-
G|-----0-----0---------0-----0---------2-----2---------2-----2-----|-
D|---2---------2-----0---------0-----2---------2-----2-------------|-
A|-3-----3---------2-----2---------0-----0---------0-----0-----0-2-|-
E|-----------------------------------------------------------------|-



E|-x---x-x---x-x---x---x-x---x-x---x---x-x---x-x---x---x-x---x-x---|-
B|-1---1-1---1-1-0-3---3-3---3-3-0-1---1-1---1-1-0-1---1-1---1-1---|-
G|-0---0-0---0-0-0-0---0-0---0-0-0-2---2-2---2-2-2-2---2-2---2-2-0-|-
D|-2---2-2---2-2-0-0---0-0---0-0-0-2---2-2---2-2---2---2-2---2-2-0-|-
A|-3---3-3---3-3---2---2-2---2-2---0---0-0---0-0---0---0-0---0-0-2-|-
E|-----------------------------------------------------------------|-



E|-----------------------------------------------------------------|-
B|---1-----0-----3---3-----0-----1---1-----0-----3---1-----0-----1-|-
G|-----0-----0---------0-----0---------2-----2---------2-----2-----|-
D|-------2-----2---------0-----0---------2-----2---------2-----2---|-
A|-3---------------2---------------0---------------0---------------|-
E|-----------------------------------------------------------------|-



E|-----------------------------------------------------------------|-
B|-----------------------------------------------------------------|-
G|-5-----------4-5-7---4-------5-4-----------5-------------------4-|-
D|---------------------------------7-----5-----5h7-7-----------7---|-
A|-----------------------------------------------------------------|-
E|-----------------------------------------------------------------|-



E|-
B|-
G|-
D|-
A|-
E|-
http://www.guitartabcreator.com
Guitar Tab Creator is intended to store guitar tab created through the tool. It currently does not support in-line text editing. Any text you place in here will be lost. If you need to comment on your tab, please use the "Tab Notes" section located below.