Red Hot Chilli Peppers - Snow

(/) Slide Up  (\) Slide Down  (h) Hammer On  (p) Pull Off  (b) Bend (r) Release (v) Vibrato

E|--------------------------------------------------------
B|--------------------------------------------------------
G|--------4-----4h6p4-----4------------4-----4h6p4-----4--
D|-----6-----6---------6------------6-----6---------6-----
A|--6----------------------------7------------------------
E|--------------------------------------------------------



E|--------------------------------------------------------
B|--------------------------------------------------------
G|-------------------------------------6-----6h8p6-----6--
D|--------4-----4h6p4-----4---------8-----8---------8-----
A|-----6-----6---------6---------9------------------------
E|--7-----------------------------------------------------
http://www.guitartabcreator.com
Guitar Tab Creator is intended to store guitar tab created through the tool. It currently does not support in-line text editing. Any text you place in here will be lost. If you need to comment on your tab, please use the "Tab Notes" section located below.