Red Hot Chilli Peppers - Scar Tissue Intro

(/) Slide Up  (\) Slide Down  (h) Hammer On  (p) Pull Off  (b) Bend (r) Release (v) Vibrato


E|-----------------------------------------------------------------------
B|-------10-----10-----10-----10-----------------------------------------
G|--------------------------------9--9/10--10------10------10------10\9--
D|-----------------------------------------------------------------------
A|--8--------8------8------8---------------------------------------------
E|--------------------------------8--8-10------10------10------10--------



E|-----------------------------------------------------
B|-----10-----10-----10-----10--8----------------------
G|---------------------------------9-10--12p10--12p10--
D|-----------------------------------------------------
A|--8------8------8------8-----------------------------
E|---------------------------------8/10----------------
http://www.guitartabcreator.com
Guitar Tab Creator is intended to store guitar tab created through the tool. It currently does not support in-line text editing. Any text you place in here will be lost. If you need to comment on your tab, please use the "Tab Notes" section located below.