Nothing Else Matters Part2

(/) Slide Up  (\) Slide Down  (h) Hammer On  (p) Pull Off  (b) Bend (r) Release (v) Vibrato


E|--------------0--------------------
B|--------------8--------7--------5--
G|-----------9-----------7--------5--
D|--------9-----------7--------5-----
A|-----7-----------5--------3--------
E|--0--------------------------------



E|-----5-----------3-----------3-----------2-----------
B|--------7-----------5-----------3--0--------0--------
G|-----------7-----------5-----------------------2-----
D|-----------------------------------------------------
A|--5-----------3-----------------------2--------------
E|--------------------------3-----------------------0--



E|-----------3-----2--3-----0-----------------
B|--------0-----0--3-----3--3--3--------------
G|-----0-----------2--------0-----0-----------
D|-----------------0--------2-----------------
A|--------------------------3-----------------
E|--0--------------------------------3--2--0--



E|--------3--------2--0--
B|--------3--------0--0--
G|-----0--------2-----0--
D|--------------------2--
A|-----------2--------2--
E|--3-----------------0--
http://www.guitartabcreator.com
Guitar Tab Creator is intended to store guitar tab created through the tool. It currently does not support in-line text editing. Any text you place in here will be lost. If you need to comment on your tab, please use the "Tab Notes" section located below.