Nothing Else Matters Part1

(/) Slide Up  (\) Slide Down  (h) Hammer On  (p) Pull Off  (b) Bend (r) Release (v) Vibrato


E|--7--7--------7r0--------------7--8--7h8r7--5--7--5\2--0--
B|-----------0-------0--------------------------------------
G|--------0-------------0-----0-----------------------------
D|----------------------------------------------------------
A|----------------------------------------------------------
E|-----0-------------------0--------------------------------



E|--0--------------2r0-----------------0--0--0--0--------------3r0--------0--0--------------
B|--5--------5----------5-----------5-----5--5--5--------5----------5-----5--7--------7-----
G|--5-----5-----5----------5-----5--------5--5--5-----5-----5----------5--5--7-----7-----7--
D|------------------------------------------------------------------------------------------
A|--0--0----------------------0-----------0--2--3--3----------------------3--5--5-----------
E|------------------------------------------------------------------------------------------



E|--0h5r0----------
B|---------7r0--5--
G|-----------------
D|-----------------
A|-----------------
E|-----------------
http://www.guitartabcreator.com
Guitar Tab Creator is intended to store guitar tab created through the tool. It currently does not support in-line text editing. Any text you place in here will be lost. If you need to comment on your tab, please use the "Tab Notes" section located below.