Nelly - Just A Dream (Intro)

(/) Slide Up  (\) Slide Down  (h) Hammer On  (p) Pull Off  (b) Bend (r) Release (v) Vibrato


E|-----------------6-------------------6-----
B|-----------7-----------7--------6p7--------
G|--------8-----------------8-------------8--
D|-----8--------8-----8--------8-------------
A|--6----------------------------------------
E|-------------------------------------------



E|-----------------------2-----------------
B|--------------2-----------2-----2--------
G|-----4-----------4-----------4-----4-----
D|--------4--4--------4-----------------4--
A|--2--------------------------------------
E|-----------------------------------------



E|--------------2-----------------------
B|-----2-----------------2--------2-----
G|--------3--------3--------3--------3--
D|--4--------4--------4--------4--------
A|--------------------------------------
E|--------------------------------------



E|-----------------------------------------
B|--------6--------------6--------6--------
G|-----------6-----6--------6--------6-----
D|-----6--------6-----6--------6--------6--
A|--4--------------------------------------
E|-----------------------------------------
http://www.guitartabcreator.com
Guitar Tab Creator is intended to store guitar tab created through the tool. It currently does not support in-line text editing. Any text you place in here will be lost. If you need to comment on your tab, please use the "Tab Notes" section located below.