Bon Iver - Holocene

Holocene by Bon Iver
Tab by: kasmura

Capo: 6th fret

This is tabbed off the video tutorial by Katie Boeck: http://www.youtube.com/watch?v=siB-EZls5pA
I don't think it is completely accurate, because she taught it a little fast.
All credit should go to her.

E|--------------------------------------------------------------------------------
B|-----3-----3-----0-------3-----3-----0-------0-----------0-------0-----0-----0--
G|--------0-----4-------------0-----4-------------0-----2-------------0-----2-----
D|--5-------------------5-------------------2--------0----------0-----------------
A|--------------------------------------------------------------------------------
E|--------------------------------------------------------------------------------


E|--------------------------------------------------------------------------------
B|-----0-----0-----0-------0-----0-----0-------0-----0-----0-------0-----------0--
G|--------0-----2-------------0-----2-------------0-----2-------------0-----2-----
D|--0-------------------0-------------------0-------------------2--------0--------
A|--------------------------------------------------------------------------------
E|--------------------------------------------------------------------------------


E|--------------------------------------------------------------------------------
B|-----0-----0-----0-------0-----0-----0-------0-----0-----0-------0-----0-----0--
G|--------0-----2-------------0-----2-------------0-----2-------------0-----2-----
D|--------------------------------------------------------------------------------
A|--3-------------------3-------------------3-------------------3-----------------
E|--------------------------------------------------------------------------------
Guitar Tab Creator is intended to store guitar tab created through the tool. It currently does not support in-line text editing. Any text you place in here will be lost. If you need to comment on your tab, please use the "Tab Notes" section located below.