A Dream Brings Eternity

(/) Slide Up  (\) Slide Down  (h) Hammer On  (p) Pull Off  (b) Bend (r) Release (v) Vibrato

Stave 1:

E|-------------------------------------------------------------------------------------16b16--
B|-------------------------------------------7-----7-----7-----12--11--10------14--15---------
G|----------------------------------------9-----9-----------9--------------13-----------------
D|-----0--------5--6--8----------------8--------------8---------------------------------------
A|--------3--5--------------5-----------------------------------------------------------------
E|--0--------------------7-----5--4h7---------------------------------------------------------

Stave 2:

E|--------------------------------------------------------------------------------------------------
B|--14--13------11--13----------11------------------------------------------------------------------
G|----------12----------12--10------10--8--------4-----4-----------------------4--2--0-----------2--
D|--------------------------------------------6-----6-----------------------------------------------
A|-----------------------------------------8-----------------------2--------2-----------0--2--0-----
E|--------------------------------------------------------4--2--4-----4--2--------------------------

Stave 3:

E|-------------------------------------------------------------12--11--10--------------16b16-----
B|-------------------------------------------7-----7-----7---------------------14--15------------
G|----------------------------------------9-----9-----------9--------------13--------------------
D|-----0--------5--7--9-----5----------8--------------8------------------------------------------
A|--------3--5-----------------------------------------------------------------------------------
E|--0--------------------8-----5--6h8------------------------------------------------------------

http://www.guitartabcreator.com
Guitar Tab Creator is intended to store guitar tab created through the tool. It currently does not support in-line text editing. Any text you place in here will be lost. If you need to comment on your tab, please use the "Tab Notes" section located below.