Joyful

(/) Slide Up  (\) Slide Down  (h) Hammer On  (p) Pull Off  (b) Bend (r) Release (v) Vibrato

Tab by Kris Kapitzke

Chorus:

E|----------10-10-10----------------10-10-10-------------9-9-9--------------10-10-10---------
B|-------------------------------------------------------------------------------------------
G|-12-12-12----------12-12-11-11-11----------11-11-9-9-9-------9-9-11-11-11----------11-11---
D|-------------------------------------------------------------------------------------------
A|-------------------------------------------------------------------------------------------
E|-------------------------------------------------------------------------------------------

Bridge:

E|-12---14-15--12---14-----12------------------------------12---14-15--12---14--------------12-
B|---------------------15------14--15--12--14--15--14--12----------------------15-15/17-15-----
G|---------------------------------------------------------------------------------------------
D|---------------------------------------------------------------------------------------------
A|---------------------------------------------------------------------------------------------
E|---------------------------------------------------------------------------------------------
http://www.guitartabcreator.com
Guitar Tab Creator is intended to store guitar tab created through the tool. It currently does not support in-line text editing. Any text you place in here will be lost. If you need to comment on your tab, please use the "Tab Notes" section located below.