Song 2

(/) Slide Up  (\) Slide Down  (h) Hammer On  (p) Pull Off  (b) Bend (r) Release (v) Vibrato


E|--------------
B|--------------
G|--------------
D|--9--7-----5--
A|--------7-----
E|--------------



E|----------------------
B|--------------15------
G|----------17------15--
D|------15--------------
A|--17------------------
E|----------------------



E|-----------------------------------
B|--9-----9-----10-----12-----10-----
G|-----9-----9------9------9------9--
D|-----------------------------------
A|-----------------------------------
E|-----------------------------------



E|--------------------
B|--------------------
G|--------9/11--9--7--
D|--9--7--------------
A|--------------------
E|--------------------



E|---0---0---0---0-----0---0---0---0---0------0----0----0----0----0-------0----0----0---------
B|-5---5---5---5---5/8---8---8---8---8---8/12---12---12---12---12---12/15---15---15---15/17---
G|--------------------------------------------------------------------------------------------
D|--------------------------------------------------------------------------------------------
A|--------------------------------------------------------------------------------------------
E|--------------------------------------------------------------------------------------------
http://www.guitartabcreator.com
Guitar Tab Creator is intended to store guitar tab created through the tool. It currently does not support in-line text editing. Any text you place in here will be lost. If you need to comment on your tab, please use the "Tab Notes" section located below.