Naked Neck

(/) Slide Up  (\) Slide Down  (h) Hammer On  (p) Pull Off  (b) Bend (r) Release (v) Vibrato


E|--------------------------------------------------------------
B|--------------------------------------------------------------
G|--------------------------------------------------------------
D|--------------------------------------------------------------
A|--------------------------------------------------------------
E|-0-0-7-0-3-6-0------4-----------4-3-7-4-----------4-3-7-4-3-0-



E|-------------------------------------------------------------------------
B|-------------------------------------------------------------------------
G|-------------------------------------------------------------------------
D|-------------------------------------------------------------------------
A|-------------------------------------------------------------------------
E|-4-0-4-0-4-0-4-0---7-7---4-0-4-0-4-0-4-0---7-7---4-0-4-0-4-0-4-0---7-7---



E|---------------------------------------------------------------------------
B|---------------------------------------------------------------------------
G|---------------------------------------------------------------------------
D|---------------------------------------------------------------------------
A|---------------------------------------------------------------------------
E|-4-0-4-0-4---3-4-3-0-3-4-3-0---4-0-4-0-4-0-4-0---7-7---4-0-4-0-4---8-7-0-3-



E|-----------------------------------------------------------------------------
B|-----------------------------------------------------------------------------
G|-----------------------------------------------------------------------------
D|-----------------------------------------------------------------------------
A|-----------------------------------------------------------------------------
E|-4-0-4-0-4-0-4-0---7-7---4-0-4-0-4---3-4-3-0-3-4-3-0-----0-0-4-4-0-3-4-3-0---



E|-------------------|----------------------------------------------------------------
B|-------------------|----------------------------------------------------------------
G|-------------------|----------------------------------------------------------------
D|-------------------|----------------------------------------------------------------
A|-------------------|----------------------------------------------4---4---4---4---4-
E|-0-0-4-4-0-3-4-3-0-|-1----0-0-4-4-0-3-4-3-0---0-0-4-4-0-3-4-6-7-7-------------------



E|---------------------------------------------------------------------------------
B|---------------------------------------------------------------------------------
G|---------------------------------------------------------------------------------
D|---------------------------------------------------------------------------------
A|-9---8---5---4--------------9---8---5---4----------------------------------------
E|------------------4-3-7-4-------------------4-3-7-4-3-0-4---4-3-7-3--4-3-7-4-3-0-



E|-------------------------------------------------------------------------------
B|-------------------------------------------------------------------------------
G|-------------------------------------------------------------------------------
D|-------------------------------------------------------------------------------
A|-------------------------------------------------------------------------------
E|-0---4-0-4-0-4-0-4-0---7-7---4-0-4-0-4-0-4-0---7-7---4-0-4-0-4-0-4-0---7-7-----



E|-------------------------------------------------------------------------------
B|-------------------------------------------------------------------------------
G|-------------------------------------------------------------------------------
D|-------------------------------------------------------------------------------
A|-------------------------------------------------------------------------------
E|-4-0-4-0-4---3-4-3-0-3-4-3-0---4-0-4-0-4-0-4-0---7-7---4-0-4-0-4---8-7-0-3-----



E|---------------------------------------------------------------
B|---------------------------------------------------------------
G|---------------------------------------------------------------
D|---------------------------------------------------------------
A|---------------------------------------------------------------
E|-4-0-4-0-4-0-4-0---7-7---4-0-4-0-4-3-7-4-3-0---3-3-3---0-3-0-7-
http://www.guitartabcreator.com
Guitar Tab Creator is intended to store guitar tab created through the tool. It currently does not support in-line text editing. Any text you place in here will be lost. If you need to comment on your tab, please use the "Tab Notes" section located below.