Kom Närmare

(/) Slide Up  (\) Slide Down  (h) Hammer On  (p) Pull Off  (b) Bend (r) Release (v) Vibrato

E|-------------------------------------------------------------------
B|-------------------------------------------------------------------
G|-------------------------------------------------------------------
D|-------------------------------------------------------------------
A|-------------------------------------------------------------------
E|-5-5---5-5-5---5-3-5---5-5-5---5-6-6---6-6-6---6-9-9---9-9-9---0-5-



E|---------------------------------------------------------------------------------
B|---------------------------------------------------------------------------------
G|---------------------------------------------------------------------------------
D|---------------------------------------------------------------------------------
A|---------------------------------------------------------------------------------
E|-5-5---5-5-5---5-3-5---5-5-5---5-6-6---6-6-6---6-9-9---9-9-9---0-5-5---5-5-5-----



E|----------------------------------------------------------------------------------
B|----------------------------------------------------------------------------------
G|----------------------------------------------------------------------------------
D|----------------------------------------------------------------------------------
A|----------------------------------------------------------------------------------
E|-5-3-5---5-5-5---5-6-6---6-6-6---6-9-9---9-9-9---0-5-5---5-5-5---5-3-5--5-3-5-----



E|----------------------------------------------------------------------------------
B|----------------------------------------------------------------------------------
G|----------------------------------------------------------------------------------
D|----------------------------------------------------------------------------------
A|----------------------------------------------------------------------------------
E|-5-6-6---6-6-6---6-9-9---9-9-9---0-5-5---5-5-5---5-3-5--5-3-5---5-6-6---6-6-6-----



E|--------------------------------------------------------------------------------------------------
B|--------------------------------------------------------------------------------------------------
G|--------------------------------------------------------------------------------------------------
D|--------------------------------------------------------------------------------------------------
A|---------------------------------5-----4----0-----------0------------------5-----4----0-----------
E|--6--9--9------9--9--9--------3-----5----------3--2--0-----3--2--0------3-----5----------3--2--0--



E|--------------------------------------------------------------------------------------------
B|--------------------------------------------------------------------------------------------
G|--------------------------------------------------------------------------------------------
D|--------------------------------------------------------------------------------------------
A|--0---------------5-----4----0-----------0------------------5-----4----0-----------0--------
E|-----3--1------3-----5----------3--2--0-----3--2--0------3-----5----------3--2--0-----3--1--



E|------------------------------------------------------------------------------------------
B|------------------------------------------------------------------------------------------
G|------------------------------------------------------------------------------------------
D|------------------------------------------------------------------------------------------
A|---------6------------6------------6------------6------------6------------6------------6--
E|--0-----------1--0---------1--0---------1--0---------1--0---------1--0---------1--0-------



E|-----------------------------
B|-----------------------------
G|-----------------------------
D|-----------------------------
A|-----------------------------
E|--0--6--0--6--0--1--1--0-----
http://www.guitartabcreator.com
Guitar Tab Creator is intended to store guitar tab created through the tool. It currently does not support in-line text editing. Any text you place in here will be lost. If you need to comment on your tab, please use the "Tab Notes" section located below.