the Golden Archs Symphony

(/) Slide Up  (\) Slide Down  (h) Hammer On  (p) Pull Off  (b) Bend (r) Release (v) Vibrato


E|--------------------------------------------------------------------------------
B|--------------------------------------------------------------------------------
G|--------------------------------------------------------------------------------
D|--------------------------------------------------------------------------------
A|--------------------------------------0-----------------------0-----------------
E|-6------6-0-0--0-0---6-0-0--0-0---3-4---4-3-0-3-0-6---6---3-4---4-3-0---0-0-0-0-



E|----------------------------------------------------------------------------------------
B|----------------------------------------------------------------------------------------
G|----------------------------------------------------------------------------------------
D|----------------------------------------------------------------------------------------
A|-------------------------------0------------------------------------------0-------------
E|-6-0-0--0-0---6-0-0--0-0---3-4---4-3-0-3-0--6-0-0--0-0---6-0-0--0-0---3-4---4-3-0---0-0-



E|-----------------------------------------------------------
B|-----------------------------------------------------------
G|-----------------------------------------------------------
D|-----------------------------------------------------------
A|---------------------------------------------------4-7-5-8-
E|-8-8---8-8-8-7-8-0-0---0-0---8-8---8-8-8-7-8-0-0-0---------



E|-
B|-
G|-
D|-
A|-
E|-



E|------------------------------------------------------------------------------
B|------------------------------------------------------------------------------
G|------------------------------------------------------------------------------
D|------------------------------------------------------------------------------
A|------------------------------------------------------------------------------
E|-6-----5-6-0-0---0-0------6------5-6-0-0---0-0------6------5-6-0-0---0-0------



E|-------------------------------------------------------------
B|-------------------------------------------------------------
G|-------------------------------------------------------------
D|-------------------------------------------------------------
A|-----------------------------------------------------4-7-5-8-
E|-6-6---6-6-6-5-6-0-0---0-0---6-6---6-6-6-5-6-0-0---0---------
http://www.guitartabcreator.com
Guitar Tab Creator is intended to store guitar tab created through the tool. It currently does not support in-line text editing. Any text you place in here will be lost. If you need to comment on your tab, please use the "Tab Notes" section located below.