the Erotic Principle

(/) Slide Up  (\) Slide Down  (h) Hammer On  (p) Pull Off  (b) Bend (r) Release (v) Vibrato


E|-------------------------------------------------------------------------------------
B|-------------------------------------------------------------------------------------
G|-------------------------------------------------------------------------------------
D|----5-----5-----5-----5------5-----5-----5-----5-------------------------------------
A|-------------------------------------------------------------------------------------
E|-5-----5-----5-----5----0-5-----5-----5-----5----0-1-1-1-1-1-1-1-1-1-0-0-0-0-0-0-0---



E|---------------------------------------------------------------------------------
B|---------------------------------------------------------------------------------
G|---------------------------------------------------------------------------------
D|---------------------------------------------------------------------------------
A|-3--3--3-3-3--3-3-3--3-3-------------------------------3--3--3-3-3--3-3-3--3-3---
E|-------------------------0--5--5--5-5-5--5-5-5--5-5-0--------------------------0-



E|-----------------------------------------------------------------------------------------------
B|-----------------------------------------------------------------------------------------------
G|-----------------------------------------------------------------------------------------------
D|-----------------------------------------------------------------------------------------------
A|-6-6-6-6-6-6-6-8-8-8-8-8-8-8-8-0---------------------------------------------------------------
E|---------------------------------13-13-13-12-12-12-10-10-10-8-8-8-10-10-10-8-8-8-7-7-7-4-4-4-5-



E|----------------------------------------------------------------
B|----------------------------------------------------------------
G|----------------------------------------------------------------
D|----------------------------------------------------------------
A|----------------------------------------------------------------
E|-5---5---5---5---5---5---10-10-10-10-10-10-10-8-8-8-8-7-7-4-4-0-



E|----------------------------------------------------------------------------------------------
B|----------------------------------------------------------------------------------------------
G|----------------------------------------------------------------------------------------------
D|----------------------------------------------------------------------------------------------
A|----------------------------------------------------------------------------------------------
E|----1----------------0----------------5----------------1----------------0----------------5----



E|---------------------------------------------------------
B|---------------------------------------------------------
G|---------------------------------------------------------
D|--------1---1--------1---1--------1---1--------1---------
A|---------------------------------------------------------
E|-1----1---1---1----1---1---1----1---1---1----1---1-0-----



E|-------------------------------------------------------------------------------
B|-------------------------------------------------------------------------------
G|-------------------------------------------------------------------------------
D|--------------------------------------------------------------5---5--------5---
A|--------5---5--------5---5--------5---5----------------------------------------
E|-0----0---0---0----0---0---0----0---0---3----3----3----5----5---5---5----5---5-
http://www.guitartabcreator.com
Guitar Tab Creator is intended to store guitar tab created through the tool. It currently does not support in-line text editing. Any text you place in here will be lost. If you need to comment on your tab, please use the "Tab Notes" section located below.