Confessions of a serial self-murderer

(/) Slide Up  (\) Slide Down  (h) Hammer On  (p) Pull Off  (b) Bend (r) Release (v) Vibrato


E|-----------------------------------------------------------------
B|-----------------------------------------------------------------
G|-----------------------------------------------------------------
D|-----------------------------------------------------------------
A|-3-3-3-3-3-3-3-3-7-7-7-7-7-7-7-7-6-6-6-6-6-6-6-6-2-2-2-2-2-2-2-2-
E|-----------------------------------------------------------------



E|-------------------------------------------------------------------------------------
B|-------------------------------------------------------------------------------------
G|-------------------------------------------------------------------------------------
D|-------3-3-7-7-0---------3-3-7-7-0-----------------------------------------3-3-7-7-0-
A|-5-5-5-------------5-5-5---------------------------------------------5-5-5-----------
E|-----------------------------------8-8-8-8-8-8-8-8-8-3-3-6-6-7-7-0-------------------



E|------------------------------------------------------
B|------------------------------------------------------
G|------------------------------------------------------
D|-------3-3-7-7-0--------------------------------------
A|-5-5-5------------------------------------------------
E|-----------------8-8-8-8-8-8-8-10-10-5-5-7-7-3-3-0----



E|-------------------------------------------------------------------------------------------------
B|-------------------------------------------------------------------------------------------------
G|-------------------------------------------------------------------------------------------------
D|-------------------------------------------------------------------------------------------------
A|---------6-6---------6-6---------6-6-------------------------6-6---------6-6---------6-6---------
E|-7-0-0-0-----7-0-0-0-----7-0-0-0-----0-0-0-0-0-0-0-0-7-0-0-0-----7-0-0-0-----7-0-0-0-----0-0-0---



E|--------------------------------
B|--------------------------------
G|--------------------------------
D|--------------------------------
A|--5-----------------1--------0--
E|-----------0--------------------
http://www.guitartabcreator.com
Guitar Tab Creator is intended to store guitar tab created through the tool. It currently does not support in-line text editing. Any text you place in here will be lost. If you need to comment on your tab, please use the "Tab Notes" section located below.