B palm mute

(/) Slide Up  (\) Slide Down  (h) Hammer On  (p) Pull Off  (b) Bend (r) Release (v) Vibrato

E|-----------------------
B|-----------------------
G|--11--9--8--8h9--8-----
D|--------------------9--
A|-----------------------
E|-----------------------



E|-----------------------
B|-----------------------
G|-----------------------
D|--9--8--9/11--9--8--9--
A|-----------------------
E|-----------------------



E|---------------------
B|-------------11--12--
G|--11-----11----------
D|------9--------------
A|---------------------
E|---------------------
http://www.guitartabcreator.com
Guitar Tab Creator is intended to store guitar tab created through the tool. It currently does not support in-line text editing. Any text you place in here will be lost. If you need to comment on your tab, please use the "Tab Notes" section located below.