Dark Riff

(/) Slide Up  (\) Slide Down  (h) Hammer On  (p) Pull Off  (b) Bend (r) Release (v) Vibrato
E|--------------------------------------------
B|--------------------------------------------
G|--------------------------------------------
D|-----------------------------------2--------
A|-----3--2--0-----3--2--0-----3--2-----2--0--
E|--0-----------0-----------0-----------------



E|--------------------------------------------
B|--------------------------------------------
G|-----5--4--------5--4-----------------------
D|-----------7-----------7-----5--3-----------
A|--7-----------7-----------5--------3--2--0--
E|--------------------------------------------



E|--0--0--0--0------0--0--0--0----
B|--0--0--0--0------1--1--1--1----
G|--0--0--0--0------0--0--0--0----
D|--2--2--2--2------2--2--2--2----
A|--2--2--2--2------3--3--3--3----
E|--0--0--0--0------X--X--X--X----
http://www.guitartabcreator.com
Guitar Tab Creator is intended to store guitar tab created through the tool. It currently does not support in-line text editing. Any text you place in here will be lost. If you need to comment on your tab, please use the "Tab Notes" section located below.