Not An Army

(/) Slide Up  (\) Slide Down  (h) Hammer On  (p) Pull Off  (b) Bend (r) Release (v) Vibrato
E|--------------------------------------
B|--------------------------------------
G|--5--------5--------2--------5--------
D|-----5--------5--------5--------7-----
A|--------5--------2--------5--------8--
E|--------------------------------------



E|----------------------
B|----------------------
G|----------------------
D|--12--12--12--12--12--
A|--12--13--13--12--13--
E|----------------------



E|--------------------------------------------------
B|--------------------------------------------------
G|--------------------------------------------------
D|--12--12--12--12--12--12--12--12--12--12--12--12--
A|--13--13--13--13--13--13--13--13--13--15--15--15--
E|--12--12--12--12--12--13--13--13--13--15--15--15--



E|--
B|--
G|--
D|--
A|--
E|--
http://www.guitartabcreator.com
Guitar Tab Creator is intended to store guitar tab created through the tool. It currently does not support in-line text editing. Any text you place in here will be lost. If you need to comment on your tab, please use the "Tab Notes" section located below.