Sourwood Mountain

(/) Slide Up  (\) Slide Down  (h) Hammer On  (p) Pull Off  (b) Bend (r) Release (v) Vibrato

Stave 1:

E|-----------------0--2--3--------------------------------
B|--------------3-----------3--0--3--3--5--3--0-----------
G|--0--2--4--5-----------------------------------2--0--0--
D|--------------------------------------------------------
A|--------------------------------------------------------
E|--------------------------------------------------------

Stave 2:

E|-----------------------------------------
B|-----------------------------------------
G|--2--4--0--4--2--0-----2--4--0--------0--
D|--------------------2-----------0--2-----
A|-----------------------------------------
E|-----------------------------------------

http://www.guitartabcreator.com
Guitar Tab Creator is intended to store guitar tab created through the tool. It currently does not support in-line text editing. Any text you place in here will be lost. If you need to comment on your tab, please use the "Tab Notes" section located below.