Solo for beginners

(/) Slide Up  (\) Slide Down  (h) Hammer On  (p) Pull Off  (b) Bend (r) Release (v) Vibrato


E|--3--3--3--1--------------3--3--3--1-----------------------------------------------------------
B|--------------2--0--------3--3--3--1-----------------------------------------------------------
G|--------------------2--0-----------------0-----------0-----------0-----------0-----------0-----
D|--------------------2--0-----------------0-----0-----------0-----------0-----------0-----------
A|--------------------------------------8-----------8-----------8-----------8-----------8--------
E|--------------------------------------8-----8-----------8-----------8-----------8--------------



E|--------------------------------------------------------------------------------------------------
B|--------------------------------------------------------------------------------------------------
G|-----0--------------0-----------0-----0-----------------------------------------------------------
D|--------0--------------0-----0-----------0--------------------------------------------------------
A|-----------8-----8-----------------8--------8-----------------------------------------------------
E|--8-----------8-----------8--------------------8--8--7--6--5--4--3--2--1--0--0--0--0--0--3--2--1--



E|--0-----------0-----------0-----------0--------0-----------------------0-----------------------
B|-----------------------------------------------------------------------------------------------
G|-----------------------------------------------------------------------------------------------
D|-----------------------------------------------------------------------------------------------
A|-----------------------------------------------------------------------------------------------
E|--0--3--2--1--0--3--2--1--0--3--2--1--3--2--1--0--0--3--3--2--2--1--1--0--0--3--3--2--2--1--1--



E|---------------------------------------------------------------0-1-2-3---
B|---------------------------------------------------0-1-2-3-4-5-----------
G|---------------------------------------0-1-2-3-4-5-----------------------
D|---------------------------0-1-2-3-4-5-----------------------------------
A|---------------0-1-2-3-4-5-----------------------------------------------
E|-0-0-1-2-3-4-5-----------------------------------------------------------



E|-3-3-3-1-2-0---------------------
B|-------------2-0-----------------
G|-----------------2-0-------------
D|---------------------2-0---------
A|-------------------------2-0-----
E|-----------------------------4-2-
http://www.guitartabcreator.com
Guitar Tab Creator is intended to store guitar tab created through the tool. It currently does not support in-line text editing. Any text you place in here will be lost. If you need to comment on your tab, please use the "Tab Notes" section located below.