Things To Play 1

(/) Slide Up  (\) Slide Down  (h) Hammer On  (p) Pull Off  (b) Bend (r) Release (v) Vibrato


E|-----------------0-----------1--2--3--------3--2--1-----------------------3--2--1--0--0--1-----
B|--------------0-----------------------------------------1--3--------1--3-----------------------
G|-----------0--------------------------2--------------2--------------------------------------2--
D|--------0-----------------------------------------------------3--1-----------------------------
A|-----0-----------------------------------------------------------------------------------------
E|--0-----------------1--3--2--------------0-----------------------------------------------------



E|-------------------------------3--3--7--6--5--5-------------------------------3--3--7--6--5--5--13--13--13--
B|------------------------------------------------------------------------------------------------------------
G|------------------------------------------------------------------------------------------------------------
D|------------------------------------------------------------------------------------------------------------
A|------------------------------------------------------------------------------------------------------------
E|--0--0--8--8--6--6--10--10--2--------------------0--0--8--8--6--6--10--10--2--------------------------------



E|--12--12--12--15--18--------------------------20--21-------------------------------------0--1--
B|----------------------18--17--19--20--20--20------------------------------------4--3-----------
G|------------------------------------------------------21---------------3--2--4-----------------
D|----------------------------------------------------------21--------3--------------------------
A|-----------------------------------------------------------------3-----------------------------
E|--------------------------------------------------------------3-----------------------0--------

La Fin/ The End
http://www.guitartabcreator.com
Guitar Tab Creator is intended to store guitar tab created through the tool. It currently does not support in-line text editing. Any text you place in here will be lost. If you need to comment on your tab, please use the "Tab Notes" section located below.