2

(/) Slide Up  (\) Slide Down  (h) Hammer On  (p) Pull Off  (b) Bend (r) Release (v) Vibrato


E|--5p3p2--7p3p2--8p3p2--7p3p2--
B|------------------------------
G|------------------------------
D|------------------------------
A|------------------------------
E|------------------------------



E|--8p7p5-----------------------8p7p5-----------------------
B|---------8p7p5-----------------------8p7p5----------------
G|----------------7p5p4-----------------------7p6p4---------
D|-----------------------7p5p4-----------------------7p6p4--
A|----------------------------------------------------------
E|----------------------------------------------------------



E|--12p11p10--15p11p10--17p11p10--15p11p10--
B|------------------------------------------
G|------------------------------------------
D|------------------------------------------
A|------------------------------------------
E|------------------------------------------



E|--<15>b--<15>--<13>--<13>br
B|------
G|------
D|------
A|------
E|------
http://www.guitartabcreator.com
Guitar Tab Creator is intended to store guitar tab created through the tool. It currently does not support in-line text editing. Any text you place in here will be lost. If you need to comment on your tab, please use the "Tab Notes" section located below.