late night blues in E

(/) Slide Up  (\) Slide Down  (h) Hammer On  (p) Pull Off  (b) Bend (r) Release (v) Vibrato
E|---------------------------------------------0------3-------------0---------
B|----------------------------------------0h3---------3p-----0h3/5------------
G|---------------------------------0h2/4--------------------------------------
D|--0h2-----------0h2---------0h2---------------------------------------------
A|----------------------------------------------------------------------------
E|--0----------0-----------0--------------------------0---0-------------------



E|---------------0---------------------------------------------------------
B|------------3-------------3----3--------3----3---------------------------
G|-----0h2/4----------------4----4p0------2----2p0-------------------------
D|----------------------------------------0----0-----------0h2-------------
A|-------------------------------------------------------------------------
E|--0-----------------------0----0----------------------0------------------



E|--9p7p0-----------0-------9p7p0-----------0-------9p7p0-----------0--------
B|-----------0h7/9-----0-------------0h7/9-----0-------------0h7/9-----0-----
G|---------------------------------------------------------------------------
D|---------------------------------------------------------------------------
A|---------------------------------------------------------------------------
E|--0-----------------------0-----------------------0------------------------



E|--9p7p0-----------0-------9p7p0-----------0-------0-------------------------
B|-----------0h7/9-----0-------------0h7/9-----0---------9p7p0----0h5/7----0--
G|-------------------------------------------------------------------------9--
D|----------------------------------------------------------------------------
A|----------------------------------------------------------------------------
E|--0-----------------------0-----------------------0----------------------0--



E|--------0-------0-----------0-------------0---------0-----------0----------12--
B|-----0-----7h9-------0h7\5-----0-------0-------7h9-------0h7\5-----0-------12--
G|-------------------------------------------------------------------------------
D|-------------------------------------------------------------------------------
A|-------------------------------------------------------------------------------
E|--0---------------------------------0-----------------------------------0------



E|-------0-----------------------------------------|--
B|-------17-----12-----0---------0--------------3--|--
G|--------------11-----9p7-------9-------0h2/4-----|--
D|-------------------------------------------------|--
A|-------------------------------------------------|--
E|--0--------0------0---------0-------0------------|--
http://www.guitartabcreator.com
Guitar Tab Creator is intended to store guitar tab created through the tool. It currently does not support in-line text editing. Any text you place in here will be lost. If you need to comment on your tab, please use the "Tab Notes" section located below.