William Murphy your reign

(/) Slide Up  (\) Slide Down  (h) Hammer On  (p) Pull Off  (b) Bend (r) Release (v) Vibrato


E|-------------------------------------------------------
B|--7--8--10------7--8--10---------------7------------5--
G|--------------------------------8--10---------6--8-----
D|-------------------------------------------------------
A|-------------------------------------------------------
E|-------------------------------------------------------



E|---------------------------
B|---------------------9--8--
G|--7------------7--8--------
D|-----10--8--6--------------
A|---------------------------
E|---------------------------
http://www.guitartabcreator.com
Guitar Tab Creator is intended to store guitar tab created through the tool. It currently does not support in-line text editing. Any text you place in here will be lost. If you need to comment on your tab, please use the "Tab Notes" section located below.