we a are glad

(/) Slide Up  (\) Slide Down  (h) Hammer On  (p) Pull Off  (b) Bend (r) Release (v) Vibrato


E|------------------------------------------------
B|------------------------------------------------
G|--7h9--7--5--------5--------------------7--5h6--
D|-------------5--7-----7--5--------5--7----------
A|----------------------------5--7----------------
E|------------------------------------------------



E|-------------------------------
B|-------------------------------
G|-----------7-----------5-------
D|---5---7-------7---5-----------
A|-------------------------------
E|-------------------------------



E|----------
B|-----8\10-
G|-7\9------
D|----------
A|----------
E|----------



E|------------
B|---12----10-
G|-9----11----
D|------------
A|------------
E|------------
http://www.guitartabcreator.com
Guitar Tab Creator is intended to store guitar tab created through the tool. It currently does not support in-line text editing. Any text you place in here will be lost. If you need to comment on your tab, please use the "Tab Notes" section located below.