sovereign god

(/) Slide Up  (\) Slide Down  (h) Hammer On  (p) Pull Off  (b) Bend (r) Release (v) Vibrato


E|-----------------------------------------------------
B|------------------------------------------8\10/8\10--
G|--7--9--10------9--7-----------------7\9-------------
D|----------------------------5--7--9------------------
A|-----------------------------------------------------
E|-----------------------------------------------------



E|---------------------------------------------------------
B|---------------------------------------------------------
G|------7--9------10--9--7---------------------------------
D|--10--------------------------11--10---------------------
A|--------------------------------------11--13-------------
E|----------------------------------------------8--10--12--



E|-----------------------------------------------------------------------
B|-----------------------------------------------------------------------
G|------7--9------10--9--7--------9--7--------------------------------7--
D|--10----------------------------------10--9------5--7------9--10-------
A|-----------------------------------------------------------------------
E|-----------------------------------------------------------------------
http://www.guitartabcreator.com
Guitar Tab Creator is intended to store guitar tab created through the tool. It currently does not support in-line text editing. Any text you place in here will be lost. If you need to comment on your tab, please use the "Tab Notes" section located below.