marvelous (beverly crawford ) g

(/) Slide Up  (\) Slide Down  (h) Hammer On  (p) Pull Off  (b) Bend (r) Release (v) Vibrato


E|-------------------------------------
B|------------9--10--12--9--10--12--8--
G|--8--9--11---------------------------
D|-------------------------------------
A|-------------------------------------
E|-------------------------------------



E|----------------------
B|--------12---------8--
G|--7--9------12--9-----
D|----------------------
A|----------------------
E|----------------------



E|--3---------7--------------3--
B|--3----7----8----7----5----3--
G|--4----7----9----7----5----4--
D|--5----7----7----7----5----5--
A|--5----5----7----5----3----5--
E|--3------------------------3--



E|----7------------
B|----8----7----5--
G|----7----7----5--
D|----7----7----5--
A|----7----5----3--
E|-----------------



E|---------------------------------------------------------
B|-----8-------------------11b15------11--8----11--10------
G|--7-----11--9----\9----------------------------------12--
D|---------------------------------------------------------
A|---------------------------------------------------------
E|---------------------------------------------------------



E|-------------------------------------------
B|--12----12--9--10----9--10--12--12--9--10--
G|-------------------------------------------
D|-------------------------------------------
A|-------------------------------------------
E|-------------------------------------------



E|----------------------------------
B|---------8--11------11--8------8--
G|--7--10--------------------10-----
D|----------------------------------
A|----------------------------------
E|----------------------------------
http://www.guitartabcreator.com
Guitar Tab Creator is intended to store guitar tab created through the tool. It currently does not support in-line text editing. Any text you place in here will be lost. If you need to comment on your tab, please use the "Tab Notes" section located below.