great and mighty joe

(/) Slide Up  (\) Slide Down  (h) Hammer On  (p) Pull Off  (b) Bend (r) Release (v) Vibrato
E|---------------------------------------
B|------------------------------------4--
G|--9--7--5------------------5--5--7-----
D|-----------7--5------5--7--------------
A|---------------------------------------
E|---------------------------------------



E|--------------------------------
B|-----------------------------5--
G|--9--7--5--------5-----5--7-----
D|-----------7--5-----7-----------
A|--------------------------------
E|--------------------------------



E|------------------------
B|------------------------
G|------------------4--5--
D|--2--3------4--5--------
A|------------------------
E|------------------------
http://www.guitartabcreator.com
Guitar Tab Creator is intended to store guitar tab created through the tool. It currently does not support in-line text editing. Any text you place in here will be lost. If you need to comment on your tab, please use the "Tab Notes" section located below.