Fur Elise

(/) Slide Up  (\) Slide Down  (h) Hammer On  (p) Pull Off  (b) Bend (r) Release (v) Vibrato


E|-----------------------------------------------------------------------
B|-17-16-17-16-17-12-15-13--------------10-------------12----------17-16-
G|--------------------------------------------------13-------------------
D|--------------------------------10-14------6-9-14--------------9-------
A|---------------------------7-12----------7----------------7-12---------
E|-------------------------5------------------------------5--------------



E|--------------------------------------------------------------------
B|-17-16-17-16-17-12-15-13--------------------------------------17-16-
G|-----------------------------------9-14----------17-16--------------
D|--------------------------------10--------6-9-14--------------------
A|---------------------------7-12---------7----------------7-12-------
E|-------------------------5-----------------------------5------------



E|-----------------------------------------------------------------------------21\
B|--------------15------------18-17------------17-15-----------15-13--------17----
G|--------16-17-------------------------------------------------------------------
D|-------------------------17----------9----15--------------14---------9-14-------
A|---7-12------------10-15----------10---10------------7-12----------7------------
E|-5---------------8---------------------------------5----------------------------
http://www.guitartabcreator.com
Guitar Tab Creator is intended to store guitar tab created through the tool. It currently does not support in-line text editing. Any text you place in here will be lost. If you need to comment on your tab, please use the "Tab Notes" section located below.