Openpositionemajor

(/) Slide Up  (\) Slide Down  (h) Hammer On  (p) Pull Off  (b) Bend (r) Release (v) Vibrato

E|--------------------------------------------0--2--4--
B|-----------------------------------0--2--4-----------
G|-----------------------------1--2--------------------
D|--------------------1--2--4--------------------------
A|-----------0--2--4-----------------------------------
E|--0--2--4--------------------------------------------



E|--4--2--0----------------------------------------------
B|-----------4--2--0-------------------------------------
G|--------------------2--1-------------------------------
D|--------------------------4--2--1----------------------
A|-----------------------------------4--2--0-------------
E|--------------------------------------------4--2--0r---
http://www.guitartabcreator.com
Guitar Tab Creator is intended to store guitar tab created through the tool. It currently does not support in-line text editing. Any text you place in here will be lost. If you need to comment on your tab, please use the "Tab Notes" section located below.