soulshine intro

(/) Slide Up  (\) Slide Down  (h) Hammer On  (p) Pull Off  (b) Bend (r) Release (v) Vibrato


E|----------------------------------------------------------------
B|-----------------------6----------------------------------------
G|---3-3---5b7b5b7---5b7---5b7b5-3-3-----3-3h5-7b5-3-3--------3-3-
D|-5-----5-----------------------------5----------------5---------
A|--------------------------------------------------------4h5-----
E|----------------------------------------------------------------



E|-----------------------------------13--------------------------------13b15-13p11-------
B|------11-11----13b15b13b15---13b15----13b15b13-13-13--------11-11----------------14-11-
G|-9/12-------12-----------------------------------------9/12-------12-------------------
D|---------------------------------------------------------------------------------------
A|---------------------------------------------------------------------------------------
E|---------------------------------------------------------------------------------------
http://www.guitartabcreator.com
Guitar Tab Creator is intended to store guitar tab created through the tool. It currently does not support in-line text editing. Any text you place in here will be lost. If you need to comment on your tab, please use the "Tab Notes" section located below.