Lollipop (acoustic) by Lil Wayne

(/) Slide Up  (\) Slide Down  (h) Hammer On  (p) Pull Off  (b) Bend (r) Release (v) Vibrato
E|-10-10-10-10-12-12-12-12-13-13-13-13-15-15-15-15-
B|-------------------------------------------------
G|-------------------------------------------------
D|-------------------------------------------------
A|-------------------------------------------------
E|-------------------------------------------------



E|-10-10-10-10-12-12-12-12-13-13-13-13-17-17-17-17-
B|-------------------------------------------------
G|-------------------------------------------------
D|-------------------------------------------------
A|-------------------------------------------------
E|-------------------------------------------------



E|-10-10-10-10-12-12-12-12-13-13-13-13-15-15-15-15-
B|-------------------------------------------------
G|-------------------------------------------------
D|-------------------------------------------------
A|-------------------------------------------------
E|-------------------------------------------------



E|-10-10-10-10-12--------------------
B|----------------10b11b10-8----8-10-
G|---------------------------10------
D|-----------------------------------
A|-----------------------------------
E|-----------------------------------



E|-5-5-------------5-5-------------7-7-----------------5-5-------
B|-6-6-5h6r5-------6-6-5h6r5-7-7-7-5-5-5h6r5-----------5-5-5h6r5-
G|-7-7-------7-5-5-5-5-------------5-5-------7-5h7r5-7-5-5-------
D|-7-7-------------6-6-------------5-5-----------------5-5-------
A|-5-5-------------7-7-------------7-7-----------------5-5-------
E|-5-5-------------5-5-------------8-8-----------------7-7-------



E|---------------------------------------------8-8-8-------
B|-8/10-8------6-6-6-------6-6-6-6-6-8-8---5---5-5-5-------
G|--------10-7-7-7-7-----7---5-5-5-5-5-5---5---------------
D|-------------7-7-7---7-----7-7-7---------5-----------5-5-
A|-------------5---5-5-------8---8---------------------5-5-
E|-------------------------------------8-8---8-------7-----



E|--5--8--5-----5--5--5------------------5--5--5h8r5-----8--8--8--8-----------------------------------------
B|-----------8-----6--6--5h6r5-----------6--6---------8--------5--5--8h10r8------8h10r8------8h10-----------
G|-----------------7--7---------7--5--5--5--5------------------5--5----------10----------10-----------------
D|-----------------7--7------------------7--7------------------5--5--------------------------------5--5--5--
A|-----------------5--5------------------8--8------------------7--7--------------------------------5--5--5--
E|-----------------5--5------------------5--5------------------8--8--------------------------------7--7--7--
http://www.guitartabcreator.com
Guitar Tab Creator is intended to store guitar tab created through the tool. It currently does not support in-line text editing. Any text you place in here will be lost. If you need to comment on your tab, please use the "Tab Notes" section located below.