Gold Digger (Kanye West)

(/) Slide Up  (\) Slide Down  (h) Hammer On  (p) Pull Off  (b) Bend (r) Release (v) Vibrato


E|------------9--------------------------9---------------
B|----11-9-11-------11-9-11------11-9-11-------11-9-11---
G|-10------------10-----------10------------10-----------
D|-------------------------------------------------------
A|-------------------------------------------------------
E|-------------------------------------------------------



E|------------------------------------------------------
B|-11r9------------------------11r9---------------------
G|------10-8-10---10----8/10--------10-8-10--10----8/10-
D|-------------------11-------------------------11------
A|------------------------------------------------------
E|------------------------------------------------------



E|----------------------------
B|----------------------------
G|-----6---6------------------
D|-7h8---8---8-8---8h11-8r6-8-
A|----------------------------
E|----------------------------
http://www.guitartabcreator.com
Guitar Tab Creator is intended to store guitar tab created through the tool. It currently does not support in-line text editing. Any text you place in here will be lost. If you need to comment on your tab, please use the "Tab Notes" section located below.